ISO-10303-21;
HEADER;
FILE_DESCRIPTION (( 'STEP AP203' ),
    '1' );
FILE_NAME ('043699_3-6003750.step',
    '2013-08-30T10:10:29',
    ( '' ),
    ( '' ),
    'SwSTEP 2.0',
    'SolidWorks 2012',
    '' );
FILE_SCHEMA (( 'CONFIG_CONTROL_DESIGN' ));
ENDSEC;

DATA;
#1 = ADVANCED_FACE ( 'NONE', ( #325 ), #37, .T. ) ;
#2 = ADVANCED_FACE ( 'NONE', ( #25 ), #32, .T. ) ;
#3 = ADVANCED_FACE ( 'NONE', ( #97 ), #359, .F. ) ;
#4 = ADVANCED_FACE ( 'NONE', ( #36 ), #95, .T. ) ;
#5 = ADVANCED_FACE ( 'NONE', ( #76 ), #106, .T. ) ;
#6 = ADVANCED_FACE ( 'NONE', ( #62 ), #92, .F. ) ;
#7 = ADVANCED_FACE ( 'NONE', ( #77 ), #59, .T. ) ;
#8 = ADVANCED_FACE ( 'NONE', ( #28 ), #42, .F. ) ;
#9 = ADVANCED_FACE ( 'NONE', ( #33 ), #87, .F. ) ;
#10 = ADVANCED_FACE ( 'NONE', ( #50 ), #48, .F. ) ;
#11 = ADVANCED_FACE ( 'NONE', ( #53 ), #34, .T. ) ;
#12 = ADVANCED_FACE ( 'NONE', ( #85 ), #30, .F. ) ;
#13 = CIRCLE ( 'NONE', #259, 2.100000000000000100 ) ;
#14 = CIRCLE ( 'NONE', #267, 3.699999999999999700 ) ;
#15 = CALENDAR_DATE ( 2013, 30, 8 ) ;
#16 = LINE ( 'NONE', #153, #69 ) ;
#17 = CIRCLE ( 'NONE', #250, 3.100000000000000100 ) ;
#18 = EDGE_LOOP ( 'NONE', ( #305, #310, #353 ) ) ;
#19 = CALENDAR_DATE ( 2013, 30, 8 ) ;
#20 = PERSON_AND_ORGANIZATION ( #246, #38 ) ;
#21 = PERSON_AND_ORGANIZATION ( #246, #38 ) ;
#22 = LINE ( 'NONE', #242, #40 ) ;
#23 = PERSON_AND_ORGANIZATION ( #246, #38 ) ;
#24 = PERSON_AND_ORGANIZATION ( #246, #38 ) ;
#25 = FACE_OUTER_BOUND ( 'NONE', #328, .T. ) ;
#26 = VECTOR ( 'NONE', #201, 1000.000000000000000 ) ;
#27 = PERSON_AND_ORGANIZATION ( #246, #38 ) ;
#28 = FACE_OUTER_BOUND ( 'NONE', #49, .T. ) ;
#29 = LOCAL_TIME ( 12, 10, 29.00000000000000000, #64 ) ;
#30 = CYLINDRICAL_SURFACE ( 'NONE', #287, 1.800000000000000000 ) ;
#31 = CIRCLE ( 'NONE', #271, 3.699999999999999700 ) ;
#32 = TOROIDAL_SURFACE ( 'NONE', #257, -1.900000000000000100, 5.000000000000000900 ) ;
#33 = FACE_OUTER_BOUND ( 'NONE', #68, .T. ) ;
#34 = CYLINDRICAL_SURFACE ( 'NONE', #285, 3.100000000000000500 ) ;
#35 = APPROVAL_DATE_TIME ( #39, #368 ) ;
#36 = FACE_OUTER_BOUND ( 'NONE', #107, .T. ) ;
#37 = CYLINDRICAL_SURFACE ( 'NONE', #268, 3.100000000000000500 ) ;
#38 = ORGANIZATION ( 'UNSPECIFIED', 'UNSPECIFIED', '' ) ;
#39 = DATE_AND_TIME ( #100, #94 ) ;
#40 = VECTOR ( 'NONE', #232, 1000.000000000000100 ) ;
#41 = DATE_AND_TIME ( #15, #72 ) ;
#42 = CONICAL_SURFACE ( 'NONE', #293, 1.800000000000000000, 0.2914567944778673200 ) ;
#43 = VECTOR ( 'NONE', #203, 1000.000000000000000 ) ;
#44 = EDGE_LOOP ( 'NONE', ( #356, #312, #324, #346 ) ) ;
#45 = CIRCLE ( 'NONE', #302, 5.000000000000000900 ) ;
#46 = CALENDAR_DATE ( 2013, 30, 8 ) ;
#47 = EDGE_LOOP ( 'NONE', ( #352, #334, #358, #339 ) ) ;
#48 = TOROIDAL_SURFACE ( 'NONE', #294, -1.900000000000000100, 3.699999999999999700 ) ;
#49 = EDGE_LOOP ( 'NONE', ( #350, #340, #342, #341 ) ) ;
#50 = FACE_OUTER_BOUND ( 'NONE', #18, .T. ) ;
#51 = LOCAL_TIME ( 12, 10, 29.00000000000000000, #54 ) ;
#52 = CIRCLE ( 'NONE', #276, 3.100000000000001000 ) ;
#53 = FACE_OUTER_BOUND ( 'NONE', #44, .T. ) ;
#54 = COORDINATED_UNIVERSAL_TIME_OFFSET ( 1, 0, .AHEAD. ) ;
#55 = CIRCLE ( 'NONE', #292, 1.000000000000000000 ) ;
#56 = EDGE_LOOP ( 'NONE', ( #338, #355, #311 ) ) ;
#57 = EDGE_LOOP ( 'NONE', ( #323, #362, #336, #307 ) ) ;
#58 = LINE ( 'NONE', #237, #73 ) ;
#59 = TOROIDAL_SURFACE ( 'NONE', #280, 2.100000000000000100, 1.000000000000000000 ) ;
#60 = DATE_AND_TIME ( #19, #29 ) ;
#61 = CIRCLE ( 'NONE', #266, 5.000000000000000900 ) ;
#62 = FACE_OUTER_BOUND ( 'NONE', #57, .T. ) ;
#63 = SHAPE_DEFINITION_REPRESENTATION ( #364, #174 ) ;
#64 = COORDINATED_UNIVERSAL_TIME_OFFSET ( 1, 0, .AHEAD. ) ;
#65 = DATE_AND_TIME ( #89, #86 ) ;
#66 = CIRCLE ( 'NONE', #253, 1.800000000000000000 ) ;
#67 = PERSON_AND_ORGANIZATION ( #246, #38 ) ;
#68 = EDGE_LOOP ( 'NONE', ( #357, #321, #316, #315 ) ) ;
#69 = VECTOR ( 'NONE', #112, 1000.000000000000000 ) ;
#70 = APPROVAL_PERSON_ORGANIZATION ( #27, #368, #171 ) ;
#71 = APPROVAL_PERSON_ORGANIZATION ( #24, #301, #149 ) ;
#72 = LOCAL_TIME ( 12, 10, 29.00000000000000000, #75 ) ;
#73 = VECTOR ( 'NONE', #195, 1000.000000000000100 ) ;
#74 = LINE ( 'NONE', #208, #26 ) ;
#75 = COORDINATED_UNIVERSAL_TIME_OFFSET ( 1, 0, .AHEAD. ) ;
#76 = FACE_OUTER_BOUND ( 'NONE', #81, .T. ) ;
#77 = FACE_OUTER_BOUND ( 'NONE', #109, .T. ) ;
#78 = APPROVAL_DATE_TIME ( #65, #378 ) ;
#79 = CIRCLE ( 'NONE', #282, 2.100000000000000100 ) ;
#80 = CIRCLE ( 'NONE', #297, 3.100000000000000100 ) ;
#81 = EDGE_LOOP ( 'NONE', ( #354, #314, #318, #317 ) ) ;
#82 = PERSON_AND_ORGANIZATION ( #246, #38 ) ;
#83 = VECTOR ( 'NONE', #163, 1000.000000000000000 ) ;
#84 = PERSON_AND_ORGANIZATION ( #246, #38 ) ;
#85 = FACE_OUTER_BOUND ( 'NONE', #47, .T. ) ;
#86 = LOCAL_TIME ( 12, 10, 29.00000000000000000, #102 ) ;
#87 = CONICAL_SURFACE ( 'NONE', #290, 1.800000000000000000, 0.2914567944778673200 ) ;
#88 = CIRCLE ( 'NONE', #272, 1.800000000000000000 ) ;
#89 = CALENDAR_DATE ( 2013, 30, 8 ) ;
#90 = CIRCLE ( 'NONE', #264, 1.000000000000000000 ) ;
#91 = LINE ( 'NONE', #137, #83 ) ;
#92 = CYLINDRICAL_SURFACE ( 'NONE', #263, 1.800000000000000000 ) ;
#93 = CIRCLE ( 'NONE', #270, 3.100000000000001000 ) ;
#94 = LOCAL_TIME ( 12, 10, 29.00000000000000000, #99 ) ;
#95 = TOROIDAL_SURFACE ( 'NONE', #269, -1.900000000000000100, 5.000000000000000900 ) ;
#96 = CIRCLE ( 'NONE', #281, 1.800000000000000000 ) ;
#97 = FACE_OUTER_BOUND ( 'NONE', #56, .T. ) ;
#98 = APPROVAL_DATE_TIME ( #60, #301 ) ;
#99 = COORDINATED_UNIVERSAL_TIME_OFFSET ( 1, 0, .AHEAD. ) ;
#100 = CALENDAR_DATE ( 2013, 30, 8 ) ;
#101 = CIRCLE ( 'NONE', #248, 1.800000000000000000 ) ;
#102 = COORDINATED_UNIVERSAL_TIME_OFFSET ( 1, 0, .AHEAD. ) ;
#103 = DATE_AND_TIME ( #46, #51 ) ;
#104 = EDGE_LOOP ( 'NONE', ( #331, #322, #306, #347 ) ) ;
#105 = APPROVAL_PERSON_ORGANIZATION ( #21, #378, #157 ) ;
#106 = TOROIDAL_SURFACE ( 'NONE', #286, 2.100000000000000100, 1.000000000000000000 ) ;
#107 = EDGE_LOOP ( 'NONE', ( #308, #335, #360 ) ) ;
#108 = LINE ( 'NONE', #177, #43 ) ;
#109 = EDGE_LOOP ( 'NONE', ( #309, #348, #333, #313 ) ) ;
#110 = DIRECTION ( 'NONE',  ( -0.0000000000000000000, -1.000000000000000000, -0.0000000000000000000 ) ) ;
#111 = DIRECTION ( 'NONE',  ( -0.0000000000000000000, -1.000000000000000000, -0.0000000000000000000 ) ) ;
#112 = DIRECTION ( 'NONE',  ( -0.0000000000000000000, -1.000000000000000000, -0.0000000000000000000 ) ) ;
#113 = CARTESIAN_POINT ( 'NONE',  ( 0.0000000000000000000, 10.37506756806112800, -1.799999999999999800 ) ) ;
#114 = CARTESIAN_POINT ( 'NONE',  ( 0.0000000000000000000, 10.37506756806112800, 0.0000000000000000000 ) ) ;
#115 = CARTESIAN_POINT ( 'NONE',  ( 0.0000000000000000000, 15.00000000000000000, 0.0000000000000000000 ) ) ;
#116 = CARTESIAN_POINT ( 'NONE',  ( 2.571758278209441500E-016, 1.000000000000000000, 2.100000000000000100 ) ) ;
#117 = PERSON_AND_ORGANIZATION_ROLE ( 'design_supplier' ) ;
#118 = DIRECTION ( 'NONE',  ( -0.0000000000000000000, -1.000000000000000000, -0.0000000000000000000 ) ) ;
#119 = APPLICATION_PROTOCOL_DEFINITION ( 'international standard', 'config_control_design', 1994, #147 ) ;
#120 = DIRECTION ( 'NONE',  ( 0.0000000000000000000, 0.0000000000000000000, -1.000000000000000000 ) ) ;
#121 = DIRECTION ( 'NONE',  ( 0.0000000000000000000, 0.0000000000000000000, -1.000000000000000000 ) ) ;
#122 =( NAMED_UNIT ( * ) SI_UNIT ( $, .STERADIAN. ) SOLID_ANGLE_UNIT ( ) );
#123 = CARTESIAN_POINT ( 'NONE',  ( 0.0000000000000000000, 0.0000000000000000000, 0.0000000000000000000 ) ) ;
#124 = APPROVAL_STATUS ( 'not_yet_approved' ) ;
#125 = DIRECTION ( 'NONE',  ( 1.000000000000000000, 0.0000000000000000000, -1.224646799147353200E-016 ) ) ;
#126 = PERSON_AND_ORGANIZATION_ROLE ( 'design_owner' ) ;
#127 = DIRECTION ( 'NONE',  ( 0.0000000000000000000, 0.0000000000000000000, 1.000000000000000000 ) ) ;
#128 = CARTESIAN_POINT ( 'NONE',  ( 2.204364238465235600E-016, 1.000000000000000000, 1.800000000000000000 ) ) ;
#129 = CARTESIAN_POINT ( 'NONE',  ( 3.796405077356796400E-016, 10.37506756806112800, 3.100000000000001000 ) ) ;
#130 = APPROVAL_STATUS ( 'not_yet_approved' ) ;
#131 = CARTESIAN_POINT ( 'NONE',  ( 0.0000000000000000000, 1.000000000000000000, -3.100000000000000100 ) ) ;
#132 = CARTESIAN_POINT ( 'NONE',  ( 0.0000000000000000000, 0.0000000000000000000, -2.100000000000000100 ) ) ;
#133 = APPLICATION_PROTOCOL_DEFINITION ( 'international standard', 'config_control_design', 1994, #156 ) ;
#134 = DIRECTION ( 'NONE',  ( 1.000000000000000000, 0.0000000000000000000, -1.224646799147353200E-016 ) ) ;
#135 = CARTESIAN_POINT ( 'NONE',  ( 0.0000000000000000000, 0.0000000000000000000, 0.0000000000000000000 ) ) ;
#136 = DIRECTION ( 'NONE',  ( -0.0000000000000000000, -1.000000000000000000, -0.0000000000000000000 ) ) ;
#137 = CARTESIAN_POINT ( 'NONE',  ( 0.0000000000000000000, 0.0000000000000000000, -3.100000000000000500 ) ) ;
#138 = DIRECTION ( 'NONE',  ( 1.000000000000000000, 0.0000000000000000000, 0.0000000000000000000 ) ) ;
#139 = CARTESIAN_POINT ( 'NONE',  ( 3.796405077356794900E-016, 1.000000000000000000, 3.100000000000000100 ) ) ;
#140 = DATE_TIME_ROLE ( 'classification_date' ) ;
#141 = MECHANICAL_CONTEXT ( 'NONE', #147, 'mechanical' ) ;
#142 = PERSON_AND_ORGANIZATION_ROLE ( 'creator' ) ;
#143 = DIRECTION ( 'NONE',  ( 0.0000000000000000000, 0.0000000000000000000, -1.000000000000000000 ) ) ;
#144 = DIRECTION ( 'NONE',  ( -1.224646799147353200E-016, 0.0000000000000000000, -1.000000000000000000 ) ) ;
#145 = DIRECTION ( 'NONE',  ( -1.224646799147353200E-016, 0.0000000000000000000, -1.000000000000000000 ) ) ;
#146 = CARTESIAN_POINT ( 'NONE',  ( 0.0000000000000000000, 10.37506756806112800, 0.0000000000000000000 ) ) ;
#147 = APPLICATION_CONTEXT ( 'configuration controlled 3d designs of mechanical parts and assemblies' ) ;
#148 = CARTESIAN_POINT ( 'NONE',  ( 3.184081677783118700E-016, 0.0000000000000000000, 2.100000000000000100 ) ) ;
#149 = APPROVAL_ROLE ( '' ) ;
#150 = CARTESIAN_POINT ( 'NONE',  ( 0.0000000000000000000, 10.37506756806112800, -3.100000000000001000 ) ) ;
#151 =( LENGTH_UNIT ( ) NAMED_UNIT ( * ) SI_UNIT ( .MILLI., .METRE. ) );
#152 = CARTESIAN_POINT ( 'NONE',  ( 0.0000000000000000000, 1.000000000000000000, -1.800000000000000000 ) ) ;
#153 = CARTESIAN_POINT ( 'NONE',  ( 2.204364238465235600E-016, 0.0000000000000000000, 1.800000000000000000 ) ) ;
#154 = CARTESIAN_POINT ( 'NONE',  ( 0.0000000000000000000, 10.37506756806112800, 0.0000000000000000000 ) ) ;
#155 = DATE_TIME_ROLE ( 'creation_date' ) ;
#156 = APPLICATION_CONTEXT ( 'configuration controlled 3d designs of mechanical parts and assemblies' ) ;
#157 = APPROVAL_ROLE ( '' ) ;
#158 = DIRECTION ( 'NONE',  ( 0.0000000000000000000, 0.0000000000000000000, -1.000000000000000000 ) ) ;
#159 = CARTESIAN_POINT ( 'NONE',  ( -2.326828918379971400E-016, 10.37506756806112800, -1.900000000000000100 ) ) ;
#160 = PERSON_AND_ORGANIZATION_ROLE ( 'classification_officer' ) ;
#161 = APPROVAL_STATUS ( 'not_yet_approved' ) ;
#162 = CARTESIAN_POINT ( 'NONE',  ( 2.204364238465235600E-016, 10.37506756806112800, 1.799999999999999800 ) ) ;
#163 = DIRECTION ( 'NONE',  ( -0.0000000000000000000, -1.000000000000000000, -0.0000000000000000000 ) ) ;
#164 =( NAMED_UNIT ( * ) PLANE_ANGLE_UNIT ( ) SI_UNIT ( $, .RADIAN. ) );
#165 = SECURITY_CLASSIFICATION_LEVEL ( 'unclassified' ) ;
#166 = DIRECTION ( 'NONE',  ( -0.0000000000000000000, -1.000000000000000000, -0.0000000000000000000 ) ) ;
#167 = CARTESIAN_POINT ( 'NONE',  ( 0.0000000000000000000, 1.000000000000000000, 0.0000000000000000000 ) ) ;
#168 = CARTESIAN_POINT ( 'NONE',  ( 0.0000000000000000000, 13.54996914133863600, 0.0000000000000000000 ) ) ;
#169 = PERSON_AND_ORGANIZATION_ROLE ( 'creator' ) ;
#170 = DIRECTION ( 'NONE',  ( 0.0000000000000000000, 0.0000000000000000000, -1.000000000000000000 ) ) ;
#171 = APPROVAL_ROLE ( '' ) ;
#172 = MANIFOLD_SOLID_BREP ( 'Rotation1', #320 ) ;
#173 = UNCERTAINTY_MEASURE_WITH_UNIT (LENGTH_MEASURE( 1.000000000000000100E-005 ), #151, 'distance_accuracy_value', 'NONE');
#174 = ADVANCED_BREP_SHAPE_REPRESENTATION ( '043699_3-6003750', ( #172, #298 ), #291 ) ;
#175 = DIRECTION ( 'NONE',  ( 0.0000000000000000000, 0.0000000000000000000, -1.000000000000000000 ) ) ;
#176 = DIRECTION ( 'NONE',  ( -0.0000000000000000000, -1.000000000000000000, -0.0000000000000000000 ) ) ;
#177 = CARTESIAN_POINT ( 'NONE',  ( 3.796405077356795400E-016, 0.0000000000000000000, 3.100000000000000500 ) ) ;
#178 = CARTESIAN_POINT ( 'NONE',  ( 0.0000000000000000000, 1.000000000000000000, 0.0000000000000000000 ) ) ;
#179 = CARTESIAN_POINT ( 'NONE',  ( 0.0000000000000000000, 10.37506756806112800, 1.900000000000000100 ) ) ;
#180 = DIRECTION ( 'NONE',  ( 0.0000000000000000000, 0.0000000000000000000, -1.000000000000000000 ) ) ;
#181 = DIRECTION ( 'NONE',  ( 0.0000000000000000000, 0.0000000000000000000, -1.000000000000000000 ) ) ;
#182 = CARTESIAN_POINT ( 'NONE',  ( 0.0000000000000000000, 0.0000000000000000000, 0.0000000000000000000 ) ) ;
#183 = CARTESIAN_POINT ( 'NONE',  ( 0.0000000000000000000, 1.000000000000000000, 0.0000000000000000000 ) ) ;
#184 = CARTESIAN_POINT ( 'NONE',  ( 0.0000000000000000000, 1.000000000000000000, -2.100000000000000100 ) ) ;
#185 = DIRECTION ( 'NONE',  ( 0.0000000000000000000, 0.0000000000000000000, -1.000000000000000000 ) ) ;
#186 = CARTESIAN_POINT ( 'NONE',  ( 0.0000000000000000000, 1.000000000000000000, 0.0000000000000000000 ) ) ;
#187 = DIRECTION ( 'NONE',  ( -0.0000000000000000000, -1.000000000000000000, -0.0000000000000000000 ) ) ;
#188 = CARTESIAN_POINT ( 'NONE',  ( 0.0000000000000000000, 10.37506756806112800, 0.0000000000000000000 ) ) ;
#189 = DIRECTION ( 'NONE',  ( 0.0000000000000000000, 0.0000000000000000000, -1.000000000000000000 ) ) ;
#190 = CARTESIAN_POINT ( 'NONE',  ( 0.0000000000000000000, 1.000000000000000000, 0.0000000000000000000 ) ) ;
#191 = CARTESIAN_POINT ( 'NONE',  ( 0.0000000000000000000, 0.0000000000000000000, 0.0000000000000000000 ) ) ;
#192 = CARTESIAN_POINT ( 'NONE',  ( 0.0000000000000000000, 1.000000000000000000, 0.0000000000000000000 ) ) ;
#193 = DIRECTION ( 'NONE',  ( -0.0000000000000000000, -1.000000000000000000, -0.0000000000000000000 ) ) ;
#194 = DIRECTION ( 'NONE',  ( -0.0000000000000000000, -1.000000000000000000, -0.0000000000000000000 ) ) ;
#195 = DIRECTION ( 'NONE',  ( 0.0000000000000000000, -0.9578262852211512100, -0.2873478855663457200 ) ) ;
#196 = DIRECTION ( 'NONE',  ( 0.0000000000000000000, 0.0000000000000000000, -1.000000000000000000 ) ) ;
#197 = DIRECTION ( 'NONE',  ( -0.0000000000000000000, -1.000000000000000000, -0.0000000000000000000 ) ) ;
#198 = DIRECTION ( 'NONE',  ( -0.0000000000000000000, -1.000000000000000000, -0.0000000000000000000 ) ) ;
#199 = CARTESIAN_POINT ( 'NONE',  ( 0.0000000000000000000, 10.37506756806112800, 0.0000000000000000000 ) ) ;
#200 = CARTESIAN_POINT ( 'NONE',  ( 0.0000000000000000000, 1.000000000000000000, 0.0000000000000000000 ) ) ;
#201 = DIRECTION ( 'NONE',  ( -0.0000000000000000000, -1.000000000000000000, -0.0000000000000000000 ) ) ;
#202 = CARTESIAN_POINT ( 'NONE',  ( 0.0000000000000000000, 10.37506756806112800, 0.0000000000000000000 ) ) ;
#203 = DIRECTION ( 'NONE',  ( -0.0000000000000000000, -1.000000000000000000, -0.0000000000000000000 ) ) ;
#204 = CARTESIAN_POINT ( 'NONE',  ( 0.0000000000000000000, 10.37506756806112800, 1.900000000000000100 ) ) ;
#205 = DIRECTION ( 'NONE',  ( -1.224646799147353200E-016, 0.0000000000000000000, -1.000000000000000000 ) ) ;
#206 = DIRECTION ( 'NONE',  ( -0.0000000000000000000, -1.000000000000000000, -0.0000000000000000000 ) ) ;
#207 = DIRECTION ( 'NONE',  ( -0.0000000000000000000, -1.000000000000000000, -0.0000000000000000000 ) ) ;
#208 = CARTESIAN_POINT ( 'NONE',  ( 0.0000000000000000000, 0.0000000000000000000, -1.800000000000000000 ) ) ;
#209 = DIRECTION ( 'NONE',  ( 0.0000000000000000000, 0.0000000000000000000, -1.000000000000000000 ) ) ;
#210 = DIRECTION ( 'NONE',  ( -0.0000000000000000000, -1.000000000000000000, -0.0000000000000000000 ) ) ;
#211 = DIRECTION ( 'NONE',  ( -1.000000000000000000, 0.0000000000000000000, 0.0000000000000000000 ) ) ;
#212 = DIRECTION ( 'NONE',  ( 0.0000000000000000000, 0.0000000000000000000, -1.000000000000000000 ) ) ;
#213 = CARTESIAN_POINT ( 'NONE',  ( 0.0000000000000000000, 0.0000000000000000000, 0.0000000000000000000 ) ) ;
#214 = DIRECTION ( 'NONE',  ( 0.0000000000000000000, 0.0000000000000000000, -1.000000000000000000 ) ) ;
#215 = DIRECTION ( 'NONE',  ( -1.000000000000000000, 0.0000000000000000000, 0.0000000000000000000 ) ) ;
#216 = DIRECTION ( 'NONE',  ( -0.0000000000000000000, -1.000000000000000000, -0.0000000000000000000 ) ) ;
#217 = CARTESIAN_POINT ( 'NONE',  ( 0.0000000000000000000, 10.37506756806112800, 0.0000000000000000000 ) ) ;
#218 = CARTESIAN_POINT ( 'NONE',  ( 0.0000000000000000000, 10.37506756806112800, 0.0000000000000000000 ) ) ;
#219 = DIRECTION ( 'NONE',  ( 0.0000000000000000000, 0.0000000000000000000, -1.000000000000000000 ) ) ;
#220 = CARTESIAN_POINT ( 'NONE',  ( -2.326828918379971400E-016, 10.37506756806112800, -1.900000000000000100 ) ) ;
#221 = DIRECTION ( 'NONE',  ( 0.0000000000000000000, 0.0000000000000000000, -1.000000000000000000 ) ) ;
#222 = DIRECTION ( 'NONE',  ( 0.0000000000000000000, 0.0000000000000000000, -1.000000000000000000 ) ) ;
#223 = DIRECTION ( 'NONE',  ( -0.0000000000000000000, -1.000000000000000000, -0.0000000000000000000 ) ) ;
#224 = DIRECTION ( 'NONE',  ( 0.0000000000000000000, 0.0000000000000000000, 1.000000000000000000 ) ) ;
#225 = DIRECTION ( 'NONE',  ( 0.0000000000000000000, 0.0000000000000000000, 1.000000000000000000 ) ) ;
#226 = CARTESIAN_POINT ( 'NONE',  ( 0.0000000000000000000, 1.000000000000000000, 0.0000000000000000000 ) ) ;
#227 = CARTESIAN_POINT ( 'NONE',  ( 0.0000000000000000000, 0.0000000000000000000, 0.0000000000000000000 ) ) ;
#228 = DIRECTION ( 'NONE',  ( -0.0000000000000000000, -1.000000000000000000, -0.0000000000000000000 ) ) ;
#229 = DIRECTION ( 'NONE',  ( 0.0000000000000000000, 0.0000000000000000000, -1.000000000000000000 ) ) ;
#230 = DIRECTION ( 'NONE',  ( -1.000000000000000000, 0.0000000000000000000, 0.0000000000000000000 ) ) ;
#231 = DIRECTION ( 'NONE',  ( 0.0000000000000000000, 0.0000000000000000000, -1.000000000000000000 ) ) ;
#232 = DIRECTION ( 'NONE',  ( 3.518996683005851800E-017, -0.9578262852211512100, 0.2873478855663457200 ) ) ;
#233 = DIRECTION ( 'NONE',  ( 0.0000000000000000000, 0.0000000000000000000, -1.000000000000000000 ) ) ;
#234 = DIRECTION ( 'NONE',  ( -0.0000000000000000000, -1.000000000000000000, -0.0000000000000000000 ) ) ;
#235 = DIRECTION ( 'NONE',  ( -0.0000000000000000000, -1.000000000000000000, -0.0000000000000000000 ) ) ;
#236 = DIRECTION ( 'NONE',  ( 1.000000000000000000, 0.0000000000000000000, -1.224646799147353200E-016 ) ) ;
#237 = CARTESIAN_POINT ( 'NONE',  ( 0.0000000000000000000, 1.000000000000000000, -1.800000000000000000 ) ) ;
#238 = CARTESIAN_POINT ( 'NONE',  ( 0.0000000000000000000, 0.0000000000000000000, 0.0000000000000000000 ) ) ;
#239 = DIRECTION ( 'NONE',  ( -0.0000000000000000000, -1.000000000000000000, -0.0000000000000000000 ) ) ;
#240 = DIRECTION ( 'NONE',  ( 0.0000000000000000000, 0.0000000000000000000, 1.000000000000000000 ) ) ;
#241 = DIRECTION ( 'NONE',  ( -0.0000000000000000000, -1.000000000000000000, -0.0000000000000000000 ) ) ;
#242 = CARTESIAN_POINT ( 'NONE',  ( 2.204364238465235600E-016, 1.000000000000000000, 1.800000000000000000 ) ) ;
#243 = DIRECTION ( 'NONE',  ( -0.0000000000000000000, -1.000000000000000000, -0.0000000000000000000 ) ) ;
#244 = DIRECTION ( 'NONE',  ( 0.0000000000000000000, 0.0000000000000000000, -1.000000000000000000 ) ) ;
#245 = DIRECTION ( 'NONE',  ( 0.0000000000000000000, 0.0000000000000000000, -1.000000000000000000 ) ) ;
#246 = PERSON ( 'UNSPECIFIED', 'UNSPECIFIED', 'UNSPECIFIED', ('UNSPECIFIED'), ('UNSPECIFIED'), ('UNSPECIFIED') ) ;
#247 = PRODUCT ( '043699_3-6003750', '043699_3-6003750', '', ( #141 ) ) ;
#248 = AXIS2_PLACEMENT_3D ( 'NONE', #183, #207, #180 ) ;
#249 = EDGE_CURVE ( 'NONE', #344, #304, #13, .T. ) ;
#250 = AXIS2_PLACEMENT_3D ( 'NONE', #226, #193, #189 ) ;
#251 = EDGE_CURVE ( 'NONE', #351, #332, #14, .T. ) ;
#252 = EDGE_CURVE ( 'NONE', #345, #304, #22, .T. ) ;
#253 = AXIS2_PLACEMENT_3D ( 'NONE', #114, #111, #120 ) ;
#254 = EDGE_CURVE ( 'NONE', #343, #344, #58, .T. ) ;
#255 = EDGE_CURVE ( 'NONE', #351, #330, #31, .T. ) ;
#256 = EDGE_CURVE ( 'NONE', #330, #343, #74, .T. ) ;
#257 = AXIS2_PLACEMENT_3D ( 'NONE', #188, #235, #222 ) ;
#258 = EDGE_CURVE ( 'NONE', #332, #330, #88, .T. ) ;
#259 = AXIS2_PLACEMENT_3D ( 'NONE', #227, #234, #219 ) ;
#260 = EDGE_CURVE ( 'NONE', #345, #343, #96, .T. ) ;
#261 = EDGE_CURVE ( 'NONE', #343, #345, #101, .T. ) ;
#262 = EDGE_CURVE ( 'NONE', #319, #349, #61, .T. ) ;
#263 = AXIS2_PLACEMENT_3D ( 'NONE', #191, #216, #245 ) ;
#264 = AXIS2_PLACEMENT_3D ( 'NONE', #184, #215, #225 ) ;
#265 = EDGE_CURVE ( 'NONE', #361, #303, #108, .T. ) ;
#266 = AXIS2_PLACEMENT_3D ( 'NONE', #204, #211, #224 ) ;
#267 = AXIS2_PLACEMENT_3D ( 'NONE', #220, #236, #205 ) ;
#268 = AXIS2_PLACEMENT_3D ( 'NONE', #182, #198, #212 ) ;
#269 = AXIS2_PLACEMENT_3D ( 'NONE', #199, #228, #209 ) ;
#270 = AXIS2_PLACEMENT_3D ( 'NONE', #154, #110, #170 ) ;
#271 = AXIS2_PLACEMENT_3D ( 'NONE', #179, #230, #240 ) ;
#272 = AXIS2_PLACEMENT_3D ( 'NONE', #217, #210, #175 ) ;
#273 = EDGE_CURVE ( 'NONE', #327, #303, #17, .T. ) ;
#274 = EDGE_CURVE ( 'NONE', #327, #344, #90, .T. ) ;
#275 = EDGE_CURVE ( 'NONE', #361, #349, #52, .T. ) ;
#276 = AXIS2_PLACEMENT_3D ( 'NONE', #146, #166, #143 ) ;
#277 = EDGE_CURVE ( 'NONE', #304, #344, #79, .T. ) ;
#278 = EDGE_CURVE ( 'NONE', #303, #327, #80, .T. ) ;
#279 = EDGE_CURVE ( 'NONE', #330, #332, #66, .T. ) ;
#280 = AXIS2_PLACEMENT_3D ( 'NONE', #200, #241, #231 ) ;
#281 = AXIS2_PLACEMENT_3D ( 'NONE', #192, #194, #229 ) ;
#282 = AXIS2_PLACEMENT_3D ( 'NONE', #123, #136, #158 ) ;
#283 = EDGE_CURVE ( 'NONE', #349, #361, #93, .T. ) ;
#284 = EDGE_CURVE ( 'NONE', #303, #304, #55, .T. ) ;
#285 = AXIS2_PLACEMENT_3D ( 'NONE', #213, #206, #185 ) ;
#286 = AXIS2_PLACEMENT_3D ( 'NONE', #178, #197, #196 ) ;
#287 = AXIS2_PLACEMENT_3D ( 'NONE', #238, #187, #221 ) ;
#288 = EDGE_CURVE ( 'NONE', #332, #345, #16, .T. ) ;
#289 = EDGE_CURVE ( 'NONE', #319, #361, #45, .T. ) ;
#290 = AXIS2_PLACEMENT_3D ( 'NONE', #186, #176, #244 ) ;
#291 =( GEOMETRIC_REPRESENTATION_CONTEXT ( 3 ) GLOBAL_UNCERTAINTY_ASSIGNED_CONTEXT ( ( #173 ) ) GLOBAL_UNIT_ASSIGNED_CONTEXT ( ( #151, #164, #122 ) ) REPRESENTATION_CONTEXT ( 'NONE', 'WORKASPACE' ) );
#292 = AXIS2_PLACEMENT_3D ( 'NONE', #116, #125, #144 ) ;
#293 = AXIS2_PLACEMENT_3D ( 'NONE', #190, #243, #181 ) ;
#294 = AXIS2_PLACEMENT_3D ( 'NONE', #218, #223, #214 ) ;
#295 = AXIS2_PLACEMENT_3D ( 'NONE', #202, #239, #233 ) ;
#296 = EDGE_CURVE ( 'NONE', #349, #327, #91, .T. ) ;
#297 = AXIS2_PLACEMENT_3D ( 'NONE', #167, #118, #121 ) ;
#298 = AXIS2_PLACEMENT_3D ( 'NONE', #135, #127, #138 ) ;
#299 = CC_DESIGN_PERSON_AND_ORGANIZATION_ASSIGNMENT ( #84, #126, ( #247 ) ) ;
#300 = PRODUCT_DEFINITION ( 'UNKNOWN', '', #377, #363 ) ;
#301 = APPROVAL ( #124, 'UNSPECIFIED' ) ;
#302 = AXIS2_PLACEMENT_3D ( 'NONE', #159, #134, #145 ) ;
#303 = VERTEX_POINT ( 'NONE', #139 ) ;
#304 = VERTEX_POINT ( 'NONE', #148 ) ;
#305 = ORIENTED_EDGE ( 'NONE', *, *, #255, .F. ) ;
#306 = ORIENTED_EDGE ( 'NONE', *, *, #273, .F. ) ;
#307 = ORIENTED_EDGE ( 'NONE', *, *, #256, .F. ) ;
#308 = ORIENTED_EDGE ( 'NONE', *, *, #262, .F. ) ;
#309 = ORIENTED_EDGE ( 'NONE', *, *, #273, .T. ) ;
#310 = ORIENTED_EDGE ( 'NONE', *, *, #251, .T. ) ;
#311 = ORIENTED_EDGE ( 'NONE', *, *, #279, .T. ) ;
#312 = ORIENTED_EDGE ( 'NONE', *, *, #275, .T. ) ;
#313 = ORIENTED_EDGE ( 'NONE', *, *, #274, .F. ) ;
#314 = ORIENTED_EDGE ( 'NONE', *, *, #278, .T. ) ;
#315 = ORIENTED_EDGE ( 'NONE', *, *, #254, .F. ) ;
#316 = ORIENTED_EDGE ( 'NONE', *, *, #277, .T. ) ;
#317 = ORIENTED_EDGE ( 'NONE', *, *, #277, .F. ) ;
#318 = ORIENTED_EDGE ( 'NONE', *, *, #274, .T. ) ;
#319 = VERTEX_POINT ( 'NONE', #115 ) ;
#320 = CLOSED_SHELL ( 'NONE', ( #9, #6, #10, #4, #1, #7, #5, #11, #2, #3, #12, #8 ) ) ;
#321 = ORIENTED_EDGE ( 'NONE', *, *, #252, .T. ) ;
#322 = ORIENTED_EDGE ( 'NONE', *, *, #265, .T. ) ;
#323 = ORIENTED_EDGE ( 'NONE', *, *, #258, .F. ) ;
#324 = ORIENTED_EDGE ( 'NONE', *, *, #296, .T. ) ;
#325 = FACE_OUTER_BOUND ( 'NONE', #104, .T. ) ;
#326 = ORIENTED_EDGE ( 'NONE', *, *, #275, .F. ) ;
#327 = VERTEX_POINT ( 'NONE', #131 ) ;
#328 = EDGE_LOOP ( 'NONE', ( #329, #337, #326 ) ) ;
#329 = ORIENTED_EDGE ( 'NONE', *, *, #289, .F. ) ;
#330 = VERTEX_POINT ( 'NONE', #113 ) ;
#331 = ORIENTED_EDGE ( 'NONE', *, *, #283, .T. ) ;
#332 = VERTEX_POINT ( 'NONE', #162 ) ;
#333 = ORIENTED_EDGE ( 'NONE', *, *, #249, .F. ) ;
#334 = ORIENTED_EDGE ( 'NONE', *, *, #279, .F. ) ;
#335 = ORIENTED_EDGE ( 'NONE', *, *, #289, .T. ) ;
#336 = ORIENTED_EDGE ( 'NONE', *, *, #260, .T. ) ;
#337 = ORIENTED_EDGE ( 'NONE', *, *, #262, .T. ) ;
#338 = ORIENTED_EDGE ( 'NONE', *, *, #251, .F. ) ;
#339 = ORIENTED_EDGE ( 'NONE', *, *, #261, .T. ) ;
#340 = ORIENTED_EDGE ( 'NONE', *, *, #261, .F. ) ;
#341 = ORIENTED_EDGE ( 'NONE', *, *, #249, .T. ) ;
#342 = ORIENTED_EDGE ( 'NONE', *, *, #254, .T. ) ;
#343 = VERTEX_POINT ( 'NONE', #152 ) ;
#344 = VERTEX_POINT ( 'NONE', #132 ) ;
#345 = VERTEX_POINT ( 'NONE', #128 ) ;
#346 = ORIENTED_EDGE ( 'NONE', *, *, #278, .F. ) ;
#347 = ORIENTED_EDGE ( 'NONE', *, *, #296, .F. ) ;
#348 = ORIENTED_EDGE ( 'NONE', *, *, #284, .T. ) ;
#349 = VERTEX_POINT ( 'NONE', #150 ) ;
#350 = ORIENTED_EDGE ( 'NONE', *, *, #252, .F. ) ;
#351 = VERTEX_POINT ( 'NONE', #168 ) ;
#352 = ORIENTED_EDGE ( 'NONE', *, *, #288, .F. ) ;
#353 = ORIENTED_EDGE ( 'NONE', *, *, #258, .T. ) ;
#354 = ORIENTED_EDGE ( 'NONE', *, *, #284, .F. ) ;
#355 = ORIENTED_EDGE ( 'NONE', *, *, #255, .T. ) ;
#356 = ORIENTED_EDGE ( 'NONE', *, *, #265, .F. ) ;
#357 = ORIENTED_EDGE ( 'NONE', *, *, #260, .F. ) ;
#358 = ORIENTED_EDGE ( 'NONE', *, *, #256, .T. ) ;
#359 = TOROIDAL_SURFACE ( 'NONE', #295, -1.900000000000000100, 3.699999999999999700 ) ;
#360 = ORIENTED_EDGE ( 'NONE', *, *, #283, .F. ) ;
#361 = VERTEX_POINT ( 'NONE', #129 ) ;
#362 = ORIENTED_EDGE ( 'NONE', *, *, #288, .T. ) ;
#363 = DESIGN_CONTEXT ( 'detailed design', #156, 'design' ) ;
#364 = PRODUCT_DEFINITION_SHAPE ( 'NONE', 'NONE',  #300 ) ;
#365 = SECURITY_CLASSIFICATION ( '', '', #165 ) ;
#366 = CC_DESIGN_APPROVAL ( #301, ( #300 ) ) ;
#367 = CC_DESIGN_PERSON_AND_ORGANIZATION_ASSIGNMENT ( #67, #169, ( #300 ) ) ;
#368 = APPROVAL ( #130, 'UNSPECIFIED' ) ;
#369 = CC_DESIGN_PERSON_AND_ORGANIZATION_ASSIGNMENT ( #82, #160, ( #365 ) ) ;
#370 = CC_DESIGN_DATE_AND_TIME_ASSIGNMENT ( #41, #140, ( #365 ) ) ;
#371 = PRODUCT_RELATED_PRODUCT_CATEGORY ( 'detail', '', ( #247 ) ) ;
#372 = CC_DESIGN_DATE_AND_TIME_ASSIGNMENT ( #103, #155, ( #300 ) ) ;
#373 = CC_DESIGN_SECURITY_CLASSIFICATION ( #365, ( #377 ) ) ;
#374 = CC_DESIGN_PERSON_AND_ORGANIZATION_ASSIGNMENT ( #23, #117, ( #377 ) ) ;
#375 = CC_DESIGN_PERSON_AND_ORGANIZATION_ASSIGNMENT ( #20, #142, ( #377 ) ) ;
#376 = CC_DESIGN_APPROVAL ( #378, ( #377 ) ) ;
#377 = PRODUCT_DEFINITION_FORMATION_WITH_SPECIFIED_SOURCE ( 'ANY', '', #247, .NOT_KNOWN. ) ;
#378 = APPROVAL ( #161, 'UNSPECIFIED' ) ;
#379 = CC_DESIGN_APPROVAL ( #368, ( #365 ) ) ;
ENDSEC;
END-ISO-10303-21;
