ISO-10303-21;
HEADER;
FILE_DESCRIPTION (( 'STEP AP214' ),
    '1' );
FILE_NAME ('5021286.stp',
    '2016-05-25T13:52:08',
    ( '' ),
    ( '' ),
    'SwSTEP 2.0',
    'SolidWorks 2014',
    '' );
FILE_SCHEMA (( 'AUTOMOTIVE_DESIGN' ));
ENDSEC;

DATA;
#1 = CARTESIAN_POINT ( 'NONE',  ( 0.0000000000000000000, 1000.000000000000000, 0.0000000000000000000 ) ) ;
#2 = AXIS2_PLACEMENT_3D ( 'NONE', #82, #67, #8 ) ;
#3 = DIRECTION ( 'NONE',  ( 0.0000000000000000000, 0.0000000000000000000, 1.000000000000000000 ) ) ;
#4 = VERTEX_POINT ( 'NONE', #19 ) ;
#5 =( NAMED_UNIT ( * ) PLANE_ANGLE_UNIT ( ) SI_UNIT ( $, .RADIAN. ) );
#6 = CARTESIAN_POINT ( 'NONE',  ( 0.0000000000000000000, 0.0000000000000000000, 0.0000000000000000000 ) ) ;
#7 = ORIENTED_EDGE ( 'NONE', *, *, #33, .T. ) ;
#8 = DIRECTION ( 'NONE',  ( 0.0000000000000000000, 0.0000000000000000000, 1.000000000000000000 ) ) ;
#9 = ORIENTED_EDGE ( 'NONE', *, *, #69, .T. ) ;
#10 = AXIS2_PLACEMENT_3D ( 'NONE', #116, #112, #79 ) ;
#11 = AXIS2_PLACEMENT_3D ( 'NONE', #139, #108, #45 ) ;
#12 = FILL_AREA_STYLE_COLOUR ( '', #70 ) ;
#13 =( NAMED_UNIT ( * ) SI_UNIT ( $, .STERADIAN. ) SOLID_ANGLE_UNIT ( ) );
#14 = FACE_OUTER_BOUND ( 'NONE', #65, .T. ) ;
#15 = DIRECTION ( 'NONE',  ( 1.000000000000000000, 0.0000000000000000000, 0.0000000000000000000 ) ) ;
#16 = ADVANCED_FACE ( 'NONE', ( #85 ), #68, .F. ) ;
#17 = CARTESIAN_POINT ( 'NONE',  ( 0.0000000000000000000, 1000.000000000000000, 0.0000000000000000000 ) ) ;
#18 = AXIS2_PLACEMENT_3D ( 'NONE', #53, #52, #31 ) ;
#19 = CARTESIAN_POINT ( 'NONE',  ( 0.0000000000000000000, 0.0000000000000000000, -4.000000000000000000 ) ) ;
#20 = LINE ( 'NONE', #51, #26 ) ;
#21 = DIRECTION ( 'NONE',  ( -0.0000000000000000000, -1.000000000000000000, -0.0000000000000000000 ) ) ;
#22 = CYLINDRICAL_SURFACE ( 'NONE', #128, 4.000000000000000000 ) ;
#23 = PRODUCT_DEFINITION_FORMATION_WITH_SPECIFIED_SOURCE ( 'ANY', '', #117, .NOT_KNOWN. ) ;
#24 = AXIS2_PLACEMENT_3D ( 'NONE', #73, #133, #3 ) ;
#25 = FILL_AREA_STYLE ('',( #12 ) ) ;
#26 = VECTOR ( 'NONE', #41, 1000.000000000000000 ) ;
#27 = APPLICATION_CONTEXT ( 'automotive_design' ) ;
#28 = CIRCLE ( 'NONE', #18, 4.000000000000000000 ) ;
#29 = UNCERTAINTY_MEASURE_WITH_UNIT (LENGTH_MEASURE( 1.000000000000000100E-005 ), #124, 'distance_accuracy_value', 'NONE');
#30 = EDGE_CURVE ( 'NONE', #102, #123, #28, .T. ) ;
#31 = DIRECTION ( 'NONE',  ( 0.0000000000000000000, 0.0000000000000000000, 1.000000000000000000 ) ) ;
#32 = PRODUCT_DEFINITION ( 'UNKNOWN', '', #23, #137 ) ;
#33 = EDGE_CURVE ( 'NONE', #123, #102, #125, .T. ) ;
#34 = ORIENTED_EDGE ( 'NONE', *, *, #33, .F. ) ;
#35 = ORIENTED_EDGE ( 'NONE', *, *, #56, .F. ) ;
#36 =( GEOMETRIC_REPRESENTATION_CONTEXT ( 3 ) GLOBAL_UNCERTAINTY_ASSIGNED_CONTEXT ( ( #71 ) ) GLOBAL_UNIT_ASSIGNED_CONTEXT ( ( #86, #5, #13 ) ) REPRESENTATION_CONTEXT ( 'NONE', 'WORKASPACE' ) );
#37 = SURFACE_STYLE_USAGE ( .BOTH. , #95 ) ;
#38 = FILL_AREA_STYLE ('',( #57 ) ) ;
#39 = ORIENTED_EDGE ( 'NONE', *, *, #56, .T. ) ;
#40 = ADVANCED_FACE ( 'NONE', ( #100 ), #22, .T. ) ;
#41 = DIRECTION ( 'NONE',  ( -0.0000000000000000000, -1.000000000000000000, -0.0000000000000000000 ) ) ;
#42 = SURFACE_STYLE_FILL_AREA ( #38 ) ;
#43 = CIRCLE ( 'NONE', #24, 4.000000000000000000 ) ;
#44 = DIRECTION ( 'NONE',  ( 0.0000000000000000000, 0.0000000000000000000, 1.000000000000000000 ) ) ;
#45 = DIRECTION ( 'NONE',  ( 0.0000000000000000000, -0.0000000000000000000, 1.000000000000000000 ) ) ;
#46 =( NAMED_UNIT ( * ) PLANE_ANGLE_UNIT ( ) SI_UNIT ( $, .RADIAN. ) );
#47 = EDGE_LOOP ( 'NONE', ( #34, #39, #120, #114 ) ) ;
#48 = SURFACE_STYLE_USAGE ( .BOTH. , #110 ) ;
#49 = AXIS2_PLACEMENT_3D ( 'NONE', #17, #115, #138 ) ;
#50 = EDGE_CURVE ( 'NONE', #104, #4, #126, .T. ) ;
#51 = CARTESIAN_POINT ( 'NONE',  ( 4.898587196589412800E-016, 1000.000000000000000, 4.000000000000000000 ) ) ;
#52 = DIRECTION ( 'NONE',  ( 0.0000000000000000000, 1.000000000000000000, 0.0000000000000000000 ) ) ;
#53 = CARTESIAN_POINT ( 'NONE',  ( 0.0000000000000000000, 1000.000000000000000, 0.0000000000000000000 ) ) ;
#54 = ORIENTED_EDGE ( 'NONE', *, *, #30, .F. ) ;
#55 = EDGE_LOOP ( 'NONE', ( #35, #54, #129, #9 ) ) ;
#56 = EDGE_CURVE ( 'NONE', #123, #104, #20, .T. ) ;
#57 = FILL_AREA_STYLE_COLOUR ( '', #66 ) ;
#58 = MECHANICAL_DESIGN_GEOMETRIC_PRESENTATION_REPRESENTATION (  '', ( #107 ), #84 ) ;
#59 = CARTESIAN_POINT ( 'NONE',  ( 4.898587196589412800E-016, 1000.000000000000000, 4.000000000000000000 ) ) ;
#60 =( NAMED_UNIT ( * ) PLANE_ANGLE_UNIT ( ) SI_UNIT ( $, .RADIAN. ) );
#61 = AXIS2_PLACEMENT_3D ( 'NONE', #6, #77, #15 ) ;
#62 = SHAPE_DEFINITION_REPRESENTATION ( #113, #80 ) ;
#63 = EDGE_LOOP ( 'NONE', ( #90, #96 ) ) ;
#64 = CARTESIAN_POINT ( 'NONE',  ( 0.0000000000000000000, 1000.000000000000000, -4.000000000000000000 ) ) ;
#65 = EDGE_LOOP ( 'NONE', ( #130, #7 ) ) ;
#66 = COLOUR_RGB ( '',0.7921568627450980000, 0.8196078431372548800, 0.9333333333333333500 ) ;
#67 = DIRECTION ( 'NONE',  ( 0.0000000000000000000, 1.000000000000000000, 0.0000000000000000000 ) ) ;
#68 = PLANE ( 'NONE',  #10 ) ;
#69 = EDGE_CURVE ( 'NONE', #4, #104, #43, .T. ) ;
#70 = COLOUR_RGB ( '',0.7921568627450980000, 0.8196078431372548800, 0.9333333333333333500 ) ;
#71 = UNCERTAINTY_MEASURE_WITH_UNIT (LENGTH_MEASURE( 1.000000000000000100E-005 ), #86, 'distance_accuracy_value', 'NONE');
#72 = PLANE ( 'NONE',  #11 ) ;
#73 = CARTESIAN_POINT ( 'NONE',  ( 0.0000000000000000000, 0.0000000000000000000, 0.0000000000000000000 ) ) ;
#74 = PRESENTATION_LAYER_ASSIGNMENT (  '', '', ( #107 ) ) ;
#75 = CARTESIAN_POINT ( 'NONE',  ( 4.898587196589412800E-016, 0.0000000000000000000, 4.000000000000000000 ) ) ;
#76 = FACE_OUTER_BOUND ( 'NONE', #47, .T. ) ;
#77 = DIRECTION ( 'NONE',  ( 0.0000000000000000000, 0.0000000000000000000, 1.000000000000000000 ) ) ;
#78 = ADVANCED_FACE ( 'NONE', ( #76 ), #92, .T. ) ;
#79 = DIRECTION ( 'NONE',  ( 0.0000000000000000000, -0.0000000000000000000, 1.000000000000000000 ) ) ;
#80 = ADVANCED_BREP_SHAPE_REPRESENTATION ( '5021286', ( #134, #61 ), #36 ) ;
#81 = PRESENTATION_STYLE_ASSIGNMENT (( #37 ) ) ;
#82 = CARTESIAN_POINT ( 'NONE',  ( 0.0000000000000000000, 1000.000000000000000, 0.0000000000000000000 ) ) ;
#83 = CLOSED_SHELL ( 'NONE', ( #78, #40, #89, #16 ) ) ;
#84 =( GEOMETRIC_REPRESENTATION_CONTEXT ( 3 ) GLOBAL_UNCERTAINTY_ASSIGNED_CONTEXT ( ( #29 ) ) GLOBAL_UNIT_ASSIGNED_CONTEXT ( ( #124, #60, #135 ) ) REPRESENTATION_CONTEXT ( 'NONE', 'WORKASPACE' ) );
#85 = FACE_OUTER_BOUND ( 'NONE', #63, .T. ) ;
#86 =( LENGTH_UNIT ( ) NAMED_UNIT ( * ) SI_UNIT ( .MILLI., .METRE. ) );
#87 = APPLICATION_PROTOCOL_DEFINITION ( 'draft international standard', 'automotive_design', 1998, #97 ) ;
#88 = PRODUCT_CONTEXT ( 'NONE', #97, 'mechanical' ) ;
#89 = ADVANCED_FACE ( 'NONE', ( #14 ), #72, .T. ) ;
#90 = ORIENTED_EDGE ( 'NONE', *, *, #69, .F. ) ;
#91 = EDGE_CURVE ( 'NONE', #102, #4, #118, .T. ) ;
#92 = CYLINDRICAL_SURFACE ( 'NONE', #49, 4.000000000000000000 ) ;
#93 =( GEOMETRIC_REPRESENTATION_CONTEXT ( 3 ) GLOBAL_UNCERTAINTY_ASSIGNED_CONTEXT ( ( #140 ) ) GLOBAL_UNIT_ASSIGNED_CONTEXT ( ( #109, #46, #122 ) ) REPRESENTATION_CONTEXT ( 'NONE', 'WORKASPACE' ) );
#94 = DIRECTION ( 'NONE',  ( -0.0000000000000000000, -1.000000000000000000, -0.0000000000000000000 ) ) ;
#95 = SURFACE_SIDE_STYLE ('',( #132 ) ) ;
#96 = ORIENTED_EDGE ( 'NONE', *, *, #50, .F. ) ;
#97 = APPLICATION_CONTEXT ( 'automotive_design' ) ;
#98 = APPLICATION_PROTOCOL_DEFINITION ( 'draft international standard', 'automotive_design', 1998, #27 ) ;
#99 = PRODUCT_RELATED_PRODUCT_CATEGORY ( 'part', '', ( #117 ) ) ;
#100 = FACE_OUTER_BOUND ( 'NONE', #55, .T. ) ;
#101 = DIRECTION ( 'NONE',  ( 0.0000000000000000000, 1.000000000000000000, 0.0000000000000000000 ) ) ;
#102 = VERTEX_POINT ( 'NONE', #64 ) ;
#103 = CARTESIAN_POINT ( 'NONE',  ( 0.0000000000000000000, 0.0000000000000000000, 0.0000000000000000000 ) ) ;
#104 = VERTEX_POINT ( 'NONE', #75 ) ;
#105 = DIRECTION ( 'NONE',  ( 0.0000000000000000000, 0.0000000000000000000, -1.000000000000000000 ) ) ;
#106 = PRESENTATION_LAYER_ASSIGNMENT (  '', '', ( #119 ) ) ;
#107 = STYLED_ITEM ( 'NONE', ( #131 ), #80 ) ;
#108 = DIRECTION ( 'NONE',  ( 0.0000000000000000000, 1.000000000000000000, 0.0000000000000000000 ) ) ;
#109 =( LENGTH_UNIT ( ) NAMED_UNIT ( * ) SI_UNIT ( .MILLI., .METRE. ) );
#110 = SURFACE_SIDE_STYLE ('',( #42 ) ) ;
#111 = MECHANICAL_DESIGN_GEOMETRIC_PRESENTATION_REPRESENTATION (  '', ( #119 ), #93 ) ;
#112 = DIRECTION ( 'NONE',  ( 0.0000000000000000000, 1.000000000000000000, 0.0000000000000000000 ) ) ;
#113 = PRODUCT_DEFINITION_SHAPE ( 'NONE', 'NONE',  #32 ) ;
#114 = ORIENTED_EDGE ( 'NONE', *, *, #91, .F. ) ;
#115 = DIRECTION ( 'NONE',  ( -0.0000000000000000000, -1.000000000000000000, -0.0000000000000000000 ) ) ;
#116 = CARTESIAN_POINT ( 'NONE',  ( 0.0000000000000000000, 0.0000000000000000000, 0.0000000000000000000 ) ) ;
#117 = PRODUCT ( '5021286', '5021286', '', ( #88 ) ) ;
#118 = LINE ( 'NONE', #121, #127 ) ;
#119 = STYLED_ITEM ( 'NONE', ( #81 ), #134 ) ;
#120 = ORIENTED_EDGE ( 'NONE', *, *, #50, .T. ) ;
#121 = CARTESIAN_POINT ( 'NONE',  ( 0.0000000000000000000, 1000.000000000000000, -4.000000000000000000 ) ) ;
#122 =( NAMED_UNIT ( * ) SI_UNIT ( $, .STERADIAN. ) SOLID_ANGLE_UNIT ( ) );
#123 = VERTEX_POINT ( 'NONE', #59 ) ;
#124 =( LENGTH_UNIT ( ) NAMED_UNIT ( * ) SI_UNIT ( .MILLI., .METRE. ) );
#125 = CIRCLE ( 'NONE', #2, 4.000000000000000000 ) ;
#126 = CIRCLE ( 'NONE', #136, 4.000000000000000000 ) ;
#127 = VECTOR ( 'NONE', #94, 1000.000000000000000 ) ;
#128 = AXIS2_PLACEMENT_3D ( 'NONE', #1, #21, #105 ) ;
#129 = ORIENTED_EDGE ( 'NONE', *, *, #91, .T. ) ;
#130 = ORIENTED_EDGE ( 'NONE', *, *, #30, .T. ) ;
#131 = PRESENTATION_STYLE_ASSIGNMENT (( #48 ) ) ;
#132 = SURFACE_STYLE_FILL_AREA ( #25 ) ;
#133 = DIRECTION ( 'NONE',  ( 0.0000000000000000000, 1.000000000000000000, 0.0000000000000000000 ) ) ;
#134 = MANIFOLD_SOLID_BREP ( 'Boss-Extrude1', #83 ) ;
#135 =( NAMED_UNIT ( * ) SI_UNIT ( $, .STERADIAN. ) SOLID_ANGLE_UNIT ( ) );
#136 = AXIS2_PLACEMENT_3D ( 'NONE', #103, #101, #44 ) ;
#137 = PRODUCT_DEFINITION_CONTEXT ( 'detailed design', #27, 'design' ) ;
#138 = DIRECTION ( 'NONE',  ( 0.0000000000000000000, 0.0000000000000000000, -1.000000000000000000 ) ) ;
#139 = CARTESIAN_POINT ( 'NONE',  ( 0.0000000000000000000, 1000.000000000000000, 0.0000000000000000000 ) ) ;
#140 = UNCERTAINTY_MEASURE_WITH_UNIT (LENGTH_MEASURE( 1.000000000000000100E-005 ), #109, 'distance_accuracy_value', 'NONE');
ENDSEC;
END-ISO-10303-21;
